Sweet Child O' Mine (tabs And Lyrics) Lyrics - Guns N' Roses

Review The Song (1)



E:|--------------15----14-----|--------------15----14-----|
B:|-----14--------------------|-----14--------------------|
G:|--------14-12----14----14--|--------14-12----14----14--|
D:|--12-----------------------|--12-----------------------|
A:|---------------------------|---------------------------|
E:|---------------------------|---------------------------|

E:|--------------15----14-----|--------------15----14-----|
B:|-----14--------------------|-----14--------------------|
G:|--------14-12----------14--|--------14-12----------14--|
D:|--14-----------------------|--14-----------------------|
A:|---------------------------|---------------------------|
E:|---------------------------|---------------------------|

E:|--------------15----14-----|--------------15----14-----|
B:|-----15--------------------|-----15--------------------|
G:|--12----14-12----14----14--|--12----14-12----14----14--|
sponsored links
D:|---------------------------|---------------------------|
A:|---------------------------|---------------------------|

E:|--------------15----14-----|--------------15----14-----|
B:|-----15--------------------|-----15--------------------|
G:|--------14-12----14----14--|--------14-12----14----14--|
D:|--12-----------------------|--12-----------------------|
A:|---------------------------|---------------------------|
E:|---------------------------|---------------------------|

E:|--------------15----14-----|--------------15----14-----|
B:|-----15--------------------|-----15--------------------|
G:|--------14-12----------14--|--------14-12----------14--|
D:|--14-----------------------|--14-----------------------|
A:|---------------------------|---------------------------|
E:|---------------------------|---------------------------|

E:|--------------15----14-----|--------------15----14-----|
B:|-----15--------------------|-----15--------------------|
G:|--12----14-12----14----14--|--12----14-12----14----14--|
D:|---------------------------|---------------------------|
A:|---------------------------|---------------------------|

E:|--------------15----14-----|--------------15----14-----|
B:|-----15--------------------|-----15--------------------|
G:|--------14-12----14----14--|--------14-12----14----14--|
D:|--12-----------------------|--12-----------------------|
A:|---------------------------|---------------------------|
E:|---------------------------|---------------------------|










E:|--------------15----14-----|--------------15----14-----|
B:|-----15--------------------|-----15--------------------|
G:|--------14-12----14----14--|--------14-12----14----14--|
D:|--12-----------------------|--12-----------------------|
A:|---------------------------|---------------------------|
E:|---------------------------|---------------------------!

E:|--------------15----14-----|--------------15----14-----|
B:|-----15--------------------|-----15--------------------|
G:|--------14-12----------14--|--------14-12----------14--|
D:|--14-----------------------|--14-----------------------|
A:|---------------------------|---------------------------|
E:|---------------------------|---------------------------

E:|--------------15----14-----|--------------15----14-----|
B:|-----15--------------------|-----15--------------------|
G:|--12----14-12----14----14--|--12----14-12----14----14--|
D:|---------------------------|---------------------------|
A:|---------------------------|---------------------------|
E:|---------------------------|---------------------------<



E:|--12------------12----14---|--15----14----12---------------14---|
B:|---------15----------------|---------------------15--------15---|
G:|-----14------14----14---14-|-----14----14----14------14----14---|
D:|---------------------------|------------------------------------|
A:|---------------------------|------------------------------------|
E:|---------------------------|------------------------------------|
Verse 1:


E:|-10------------------------|---------8--------------------------|
B:|-10------------------------|---------8--------------------------|
G:|-11------------------------|---------9--------------------------|
D:|-12------------------------|---------10-------------------------|
A:|---------------------------|------------------------------------|
E:|---------------------------|------------------------------------|

1-She`s got a smile that it seems to me reminds me of child hood


E:|--10p8------------------|--3-------------|-3-------3------------|
B:|-----------8-------(8)/-|--3-------------|----3-----------3-----|
G:|------------------------|--0-------------|-------0------------0-|
D:|------------------------|--5-------------|----------------------|
A:|------------------------|----------------|----------------------|
E:|------------------------|----------------|----------------------|

memories, where everything was as fresh as the bright blue sky.


E:|--2-------2----------3p2---|---------------0----------------2---|
B:|--3-------3----------3-----|-------3---------------3------------|
G:|--2-------2----------2-----|-----------2----------------2-------|
D:|--0-------0----------0-----|--0---------------------------------|
A:|---------------------------|------------------------------------|
E:|---------------------------|------------------------------------|

Now and then___ when I

E:|-----------2--3--3--2--0---|-------------------0----------------|
B:|---3----------------------3|-----------3----------3----3--------|
G:|------2--------------------|------0-------0---------------0----0|
D:|---------0-----------------|--------2--------2------------------|
A:|---------------------------|---3---------------------3-------3--|
E:|---------------------------|------------------------------------|

see her face she takes me away to that special place, and if I


E:|----------------------0----------0------------------3--------2--|
B:|---------3------3-------3---3------3-----3-----3----3--3-----3--|
G:|--------------0---0-------0----------0-----2-----2--2----2---2--|
D:|-----0-----0---------------------------0-----0---------------0--|
A:|----------------------------------------------------------------|
E:|-3--------------------------------------------------------------|

Stared too long I`ll probably break down and cry__________________


Chorus:

E:|---------------------------|--------------12----10-----|
B:|-----14-------15----14-----|-----13--------------------|
G:|--------14-------14----14--|--------12-10----12----12--|
D:|-----------14--------------|--10-----------------------|
A:|---11----------------------|---------------------------|
E:|---------------------------|---------------------------|
| | |
E:|---------------------------|---------------------------|
B:|---------------------------|---------------------------|
G:|---2------2-------2--4-----|--5-------5----------------|
D:|---2------2-------2--4-----|--5-------5----------------|
A:|---0------0-------0--2-----|--3-------3----------------|
E:|---------------------------|---------------------------|

Whoa Whoa Whoa____, sweet child o`mine

E:|--------------15----14-----|--------------15---14-----|
B:|-----15--------------------|-----15-------------------|
G:|--------14-12----14----14--|--------14-12---14----14--|
D:|--12-----------------------|--12----------------------|
A:|---------------------------|--------------------------|
E:|---------------------------|--------------------------|
| | |
E:|-2----------------------2--|-3---2---0---2------------|
B:|-3----------------------3--|-3---3---3---2------------|
G:|-2----------------------2--|-2---2---2---3------------|
D:|-0----------------------0--|-0---0---0---0------------|
A:|---------------------------|--------------------------|
E:|---------------------------|--------------------------|


E:|---------------------------|--------------12----10----|
B:|-----14-------15----14-----|-----13-------------------|
G:|--------14-------14----14--|--------12-10----12----12-|
D:|-----------14--------------|---10---------------------|
A:|---11----------------------|--------------------------|
E:|---------------------------|--------------------------|
| | |
E:|-2----------------------2--|-3---2---0---2------------|
B:|-3----------------------3--|-3---3---3---2------------|
G:|-2----------------------2--|-2---2---2---3------------|
D:|-0----------------------0--|-0---0---0---0------------|
A:|---------------------------|--------------------------|
E:|---------------------------|--------------------------|

Whoa oh oh sweet love of mine




E:|---------------------------|---------------------------|
B:|--------15-----------------|---------------------------|
G:|--12s14--------------------|---------------------------|
D:|---------------------------|---------------------------|
A:|---------------------------|---------------------------|
E:|---------------------------|---------------------------|
| | |
E:|-2----------------------2--|-3---2---0---2-------------|
B:|-3----------------------3--|-3---3---3---2-------------|
G:|-2----------------------2--|-2---2---2---3-------------|
D:|-0----------------------0--|-0---0---0---0-------------|
A:|---------------------------|---------------------------|
E:|---------------------------|---------------------------|

FILL1:

E:|-------------------------------------------------------------
B:|---10---8--7-----10--8--7----10---8------10---8-----10-\-8---
G:|-------------------------------------9------------9----------|
D:|-------------------------------------------------------------|
A:|-------------------------------------------------------------|
E:|-------------------------------------------------------------|

E:|------------------10--10^--(10)---------------|
B:|-10-^-(10)8--10-^--------------full-----------|
G:|--------------------------------9-^-----------|
D:|----------------------------------------------|
A:|----------------------------------------------|
E:|----------------------------------------------|

Verse 2:

E:|-10------------------------|---------8--------------------------|
B:|-10------------------------|---------8--------------------------|
G:|-11------------------------|---------9--------------------------|
D:|-12------------------------|---------10-------------------------|
A:|---------------------------|------------------------------------|
E:|---------------------------|------------------------------------|

2- She`s got eyes of the bluest skies, as if they thought of rain___


E:|--10p8------------------|--3-------------|-3-------3------------|
B:|-----------8-------(8)/-|--3-------------|----3-----------3-----|
G:|------------------------|--0-------------|-------0------------0-|
D:|------------------------|--5-------------|----------------------|
A:|------------------------|----------------|----------------------|
E:|------------------------|----------------|----------------------|

_________________________I`d hate to look into those eyes and


E:|--2-------2----------3p2---|---------------0----------------2---|
B:|--3-------3----------3-----|-------3---------------3------------|
G:|--2-------2----------2-----|-----------2----------------2-------|
D:|--0-------0----------0-----|--0---------------------------------|
A:|---------------------------|------------------------------------|
E:|---------------------------|------------------------------------|

See an ounce of pain Her hair reminds me of a ____


E:|-----------2--3--3--2--0---|-------------------0----------------|
B:|---3----------------------3|-----------3----------3----3--------|
G:|------2--------------------|------0-------0---------------0----0|
D:|---------0-----------------|--------2--------2------------------|
A:|---------------------------|---3---------------------3-------3--|
E:|---------------------------|------------------------------------|

Warm safe place whre as a child I`d hide,________________and_


E:|----------------------0----------0------------------3--------2--|
B:|---------3------3-------3---3------3-----3-----3----3--3-----3--|
G:|--------------0---0-------0----------0-----2-----2--2----2---2--|
D:|-----0-----0---------------------------0-----0---------------0--|
A:|----------------------------------------------------------------|
E:|-3--------------------------------------------------------------|

Pray__for the thunder and the rain to quietly pass me by___________


Chorus:

E:|---------------------------|--------------12----10-----|
B:|-----14-------15----14-----|-----13--------------------|
G:|--------14-------14----14--|--------12-10----12----12--|
D:|-----------14--------------|--10-----------------------|
A:|---11----------------------|---------------------------|
E:|---------------------------|---------------------------|
| | |
E:|---------------------------|---------------------------|
B:|---------------------------|---------------------------|
G:|---2------2-------2--4-----|--5-------5----------------|
D:|---2------2-------2--4-----|--5-------5----------------|
A:|---0------0-------0--2-----|--3-------3----------------|
E:|---------------------------|---------------------------|

Whoa Whoa Whoa____, sweet child o`mine

E:|--------------15----14-----|--------------15---14-----|
B:|-----15--------------------|-----15-------------------|
G:|--------14-12----14----14--|--------14-12---14----14--|
D:|--12-----------------------|--12----------------------|
A:|---------------------------|--------------------------|
E:|---------------------------|--------------------------|
| | |
E:|-2----------------------2--|-3---2---0---2------------|
B:|-3----------------------3--|-3---3---3---2------------|
G:|-2----------------------2--|-2---2---2---3------------|
D:|-0----------------------0--|-0---0---0---0------------|
A:|---------------------------|--------------------------|
E:|---------------------------|--------------------------|



E:|---------------------------|--------------12----10----|
B:|-----14-------15----14-----|-----13-------------------|
G:|--------14-------14----14--|--------12-10----12----12-|
D:|-----------14--------------|---10---------------------|
A:|---11----------------------|--------------------------|
E:|---------------------------|--------------------------|
| | |
E:|-2----------------------2--|-3---2---0---2------------|
B:|-3----------------------3--|-3---3---3---2------------|
G:|-2----------------------2--|-2---2---2---3------------|
D:|-0----------------------0--|-0---0---0---0------------|
A:|---------------------------|--------------------------|
E:|---------------------------|--------------------------|

Whoa oh oh sweet love of mine




E:|---------------------------|---------------------------|
B:|--------15-----------------|---------------------------|
G:|--12s14--------------------|---------------------------|
D:|---------------------------|---------------------------|
A:|---------------------------|---------------------------|
E:|---------------------------|---------------------------|
| | |
E:|-2----------------------2--|-3---2---0---2-------------|
B:|-3----------------------3--|-3---3---3---2-------------|
G:|-2----------------------2--|-2---2---2---3-------------|
D:|-0----------------------0--|-0---0---0---0-------------|
A:|---------------------------|---------------------------|
E:|---------------------------|---------------------------|




FILL 2:
E:|-------------------------------------------------------------|
B:|---10---8--7-----10--8--7----10---8------10---8-----10-\-8---|
G:|-------------------------------------9------------9----------|
D:|-------------------------------------------------------------|
A:|-------------------------------------------------------------|
E:|-------------------------------------------------------------|

E:|--------------------------------10--------------------|
B:|-10-\-8-7hb--(7)----7-^------------(7)-----10----8--7-|
G:|------------------7-----------------------------------|
D:|------------------------------------------------------|
A:|------------------------------------------------------|
E:|------------------------------------------------------|

E:|------------------------10----10-\-8-------/12--------|
B:|-10---8----7-----/10-^--------------------------------|
G:|------------------------------------------------------|
D:|------------------------------------------------------|
A:|------------------------------------------------------|
E:|------------------------------------------------------|




E:|--12---12-\-10---10-(10)\-8---7-^--(7)----------------|
B:|-----------------------------------------8------------|
G:|---------------------------------------------7-~~~~~~~|
D:|------------------------------------------------------|
A:|------------------------------------------------------|
E:|------------------------------------------------------|

E:|-----------------------10---10-^--(10)-------------17----(17)|
B:|-10-^--(10)p8---10-^-------------------17-^---(17)-------(17)|
G:|-------------------------------------------------------------|
D:|-------------------------------------------------------------|
A:|-------------------------------------------------------------|
E:|-------------------------------------------------------------|

THIS IS FILL 3:
CHORUS:A5 C5 D5(FILL 3)
A5 C5 D5
A5 C5 D5(FILL 3)

A5 C5 D5 D5 D5 D5
E:|-----------------------------|
B:|--7hb------------------------|
G:|------7----------------------|
D:|--------7--5-/-4---0---------|
A:|----------------------3^-----|
E:|-----------------------------|



SOLO:

E:|-17^--hold----15--14--h15p14-----------15--14--h15p14-----------12--14-|
B:|-----------------------------17-----------------------17-16------------|
G:|-----------------------------------------------------------------------|
D:|-----------------------------------------------------------------------|
A:|-----------------------------------------------------------------------|
E:|-----------------------------------------------------------------------|


E:|-----------------------------------------------------------------------|
B:|--15^--12----------------------------------------13-12-------h13p12\10-|
G:|----------14^--12--11h12----------------11-12-14-----------------------|
D:|-----------------------------14-----14---------------------------------|
A:|-----------------------------------------------------------------------|
E:|-----------------------------------------------------------------------|


E:|---------------------------------------------15^-----------------------|
B:|--13^-----13-----12--12-(12)-------12^----------------7^^--------------|
G:|-----------------------------------------14-----------------9--9-------|
D:|-----------------------------------------------------------------------|
A:|-----------------------------------------------------------------------|
E:|-----------------------------------------------------------------------|

E:|-----------------------------------------------------------------------|
B:|-----7^----------------------------------------------------------------|
G:|----------9--9-----8^----8/11---------11^---9-----------------9--------|
D:|-----------------------------------------------9^---7---9--------------|
A:|-----------------------------------------------------------------------|
E:|-----------------------------------------------------------------------|

E:|-----------------------------------------------------------------------|
B:|--------7h8--p7---------------------------------------------7^---7-10^-|
G:|----------------------9------8^-----8------/11-----9^--8-9-----9-------|
D:|-----------------------------------------------------------------------|
A:|-----------------------------------------------------------------------|
E:|-----------------------------------------------------------------------|

E:|-7-8p7-11p7-8-11-12/14-11-12--14/15-12-14-15p14-12----14p11-12h14p12---|
B:|---------------------------------------------------15----------------15|
G:|-----------------------------------------------------------------------|
D:|-----------------------------------------------------------------------|
A:|-----------------------------------------------------------------------|
E:|-----------------------------------------------------------------------|

This par uses wah wah

E:|-17--------------------------------------------------------------------|
B:|----15^---15^---15^---15^---15^-p12-----15^----15^--------15^-p12------|
G:|------------------------------------14----------------------------14---|
D:|-----------------------------------------------------------------------|
A:|-----------------------------------------------------------------------|
E:|-----------------------------------------------------------------------|

E:|----------------------------------15-----------------------------------|
B:|--17^---17^--------17^----17^----------17^---------17^-p15--15h17------|
G:|-------------------17^-------------------------------------------------|
D:|-----------------------------------------------------------------------|
A:|-----------------------------------------------------------------------|
E:|-----------------------------------------------------------------------|

E:|-----------12----------------------------------------------------------|
B:|-15^------------15---12------------------------------------------------|
G:|---------------------------14^-p12-14---12-14----12--14^----12--14--12-|
D:|-----------------------------------------------------------------------|
A:|-----------------------------------------------------------------------|
E:|-----------------------------------------------------------------------|

E:|----15-------------15-----15-----15------------------------------------|
B:|----15-------15----15-----15-------15----------------------------------|
G:|-14^--14--12-14^-----14^----14^------14^-p12----14p12--x-x----12^------|
D:|---------------------------------------------14--------x-x-------------|
A:|-----------------------------------------------------------------------|
E:|-----------------------------------------------------------------------|

E:|-----------------------------------------------------------------------|
B:|-----------------------------------------------------------------------|
G:|-----------------12h14p12----12^--------------------12h14p12-----12-12-|
D:|-14p12-14----x-x----------14--------14p12-14----x-x----------14--------|
A:|-----------------------------------------------------------------------|
E:|-----------------------------------------------------------------------|


E:|----------------------------------------------12-12-------15-15p12--15-|
B:|-------------------12-12-------15-15p12-------------15p12--------------|
G:|-------14-14p12-14-------14p12-----------------------------------------|
D:|-14p12-----------------------------------------------------------------|
A:|-----------------------------------------------------------------------|
E:|-----------------------------------------------------------------------|

E:|-14----12h15p12---------12-----------12-----------12-----------12------|
B:|----15----------15--15^----15p12--------15p12-15^----15p12--------15p12|
G:|----------------------------------14^-----------------------14^--------|
D:|-----------------------------------------------------------------------|
A:|-----------------------------------------------------------------------|
E:|-----------------------------------------------------------------------|

E:|------12-----------12-----------12--------------12-------15^-----------|
B:|--15^----15p12--------15p12-15^----15p12-----12----15p12---------------|
G:|---------------14^-----------------------14^---------------------------|
D:|-----------------------------------------------------------------------|
A:|-----------------------------------------------------------------------|
E:|-----------------------------------------------------------------------|

E:|--------------------15------12h15p12----12------12---------------------|
B:|-------------------------------------15-----15^-----15p12--------------|
G:|-----------------------------------------------------------14^-p12-14^-|
D:|-----------------------------------------------------------------------|
A:|-----------------------------------------------------------------------|
E:|-----------------------------------------------------------------------|

E:|---------------------------------------------------|
B:|-------15------------------------------------------|
G:|----------14^-p12-14^----14p12--------------12-----|
D:|----------------------14-------14------------------|
A:|---------------------------------------------------|
E:|---------------------------------------------------|

Following vocals ad lib over E F# G A B C D G chord sequence
Where do we go?_____ Where do we go_____now?
Where do we go?_____ Where do we go?______






Click here to submit the Corrections of Sweet Child O' Mine (tabs And Lyrics) Lyrics
Oh..........Sweet CHild o' MIne | Reviewer: Anonymous | 6/27/2007

Yeah..dis is da song so close n special 2 meh..mayb coz it was sung fo meh by sum really special..wel he was crazy..n so is Slash..he rocks..how i wishd da band didnt split..they wer real cool rockers..da song is a masterpiece..rock on guys..!!

Is this review helpful to you?     Yes      No




The following area is only for review, if you want to submit the lyrics or the corrections of the lyrics, please click the link at the end of Sweet Child O' Mine (tabs And Lyrics) Lyrics.
Your Name:
(Important: Your name will be published if you input it)

Review for Sweet Child O' Mine (tabs And Lyrics) Lyrics
------ Performed by Guns N' Roses

Please enter a title for your review:

------ 07/31/2014

Type your review in the space below: